Hey Hey My My — with guitar+complete

Neil Young

Неопределенный Блюзовая Для начинающих
Неопределен G Неопределено
Hey, Hey, My, My - Neil Young
                                          G-Harp
Intro/Main Riff
#1  Am             G
E|-----|--------------------------|--1--1--1--|--1--1--1--|
B|-----|--------------------------|--1--1--1--|--1--1--1--|
G|-----|--------------------------|--2--2--2--|--2--2--2--|      2 times
D|-----|-----------0--------------|--3--3--3--|--3--3--3--|
A|--0--|--0--2--3-----2--0-----0--|--0--0--0--|--0--0--0--|
E|-----|--------------------3-----|-----------|-----------|
   -4    -4  5 -5  6  5 -4  4 -4      <- G-Harp
   -6    -6 -7  7 -8 -7 -6  6 -6      <- C-Harp (1 octave up)
#2  C              G
E|-----|--------------------------|--0--0--0--|--1--1--1--|
B|-----|--------------------------|--1--1--1--|--1--1--1--|
G|-----|-----------0--2--0--------|--2--2--2--|--2--2--2--|         ->
#1 again
D|-----|-----0--2-----------2-----|--2--2--2--|--3--3--3--|
A|--3--|--3--------------------0--|--0--0--0--|--0--0--0--|
E|-----|--------------------------|--0--0--0--|-----------|
   -5    -5  6 -6  7 -8  7 -6 -4
    7     7 -8  8  9-10  9  8 -6
                 
Am   G        F (always play like this: 4. 4. 88 | 4. 4. 88)
 -6   6   -6 6 -5 -4
Hey, Hey, My, My. 
Am     G              F   
 -6 -6  6   -5  -6 6 6 -5 -4 
Rock N Roll Can Never Die. 
          C          G        Am           Fmaj7
  4      -6  -6 -6   7  -6    -6   -6    6  7 -6
There's More To The Picture, Than Meets The Eye. 
Am   G         F
 -6   6   -6 6 -5 -4
Hey, Hey, My, My.    (Main Riff)


Am         G                  F  
 -6 -6  -6  6     -5 -6-6  -6  6 -4
Out Of The Blue, And Into The Black. 
Am          G                       F 
 -5 -6  -6   6     6   -5  -6   -6  6 -4
You Pay For This, But They Give You That. 
 C            G     Am              Fmaj7
-5   -6    6  7 -6  -6   -6    6    7 -6
And Once Your Gone, You Can't Come Back, 
Am                  G                   F
 -8  -8   -8 -8 -8   7    -6 -8-8 -8   -8
When Your Outta The Blue And Into The Black.   (Main Riff)


Am           G                     F
-5  -6   -6  6     6   -5   -6  -6 6 -5 -4
The King Is Gone, But He's Not Forgotten. 
Am           G            7   7-6 F 
-6   -6  -6  6 6  6  -5  -6  -6 6 -5 -4
This Is The Story Of The Johnny Rotten. 
  C             G        Am              Fmaj7
 -5   -6 -6 6   7   -6    -6   -6   6  6   7 -6
It's Better To Burn Out, Cause Rust Never Sleeps.
Am           G                    F
-5  -6   -6 -6 6  6   -5   -6  -6 6 -5 -4
The King Is Gone, But He's Not Forgotten.   (Main Riff)


Am   G         F   
 -6   6  -6   -6V
Hey, Hey, My, My. 
Am     G               F   
-6  -6  6   -5  -6-6  -6V
Rock N Roll Can Never Die. 
          C          G        Am           Fmaj7
   -5    -6  -6 6    7  -6    -6   -6    7  -6
There's More To The Picture, Than Meets The Eye. 
Am   G           F
 -6   6   -6  6 -5 -4
Hey, Hey, My, My. 
(End with the main riff.)

Добавил: ?, 2011.11.05

Добавить комментарий